ISO-10303-21;
HEADER;
FILE_DESCRIPTION (( 'STEP AP214' ),
    '1' );
FILE_NAME ('2046565.STEP',
    '2025-01-24T13:43:39',
    ( '' ),
    ( '' ),
    'SwSTEP 2.0',
    'SolidWorks 2024',
    '' );
FILE_SCHEMA (( 'AUTOMOTIVE_DESIGN' ));
ENDSEC;

DATA;
#1 = DIRECTION ( 'NONE',  ( 1.000000000000000000, 0.000000000000000000, 0.000000000000000000 ) ) ;
#2 = AXIS2_PLACEMENT_3D ( 'NONE', #172, #44, #141 ) ;
#3 = VECTOR ( 'NONE', #127, 1000.000000000000000 ) ;
#4 =( NAMED_UNIT ( * ) SI_UNIT ( $, .STERADIAN. ) SOLID_ANGLE_UNIT ( ) );
#5 = SURFACE_STYLE_FILL_AREA ( #179 ) ;
#6 = AXIS2_PLACEMENT_3D ( 'NONE', #85, #168, #10 ) ;
#7 = DIRECTION ( 'NONE',  ( 0.000000000000000000, 0.000000000000000000, 1.000000000000000000 ) ) ;
#8 = VECTOR ( 'NONE', #142, 1000.000000000000000 ) ;
#9 = PRODUCT ( '2046565', '2046565', '', ( #38 ) ) ;
#10 = DIRECTION ( 'NONE',  ( 1.000000000000000000, 0.000000000000000000, -0.000000000000000000 ) ) ;
#11 = ORIENTED_EDGE ( 'NONE', *, *, #52, .F. ) ;
#12 = EDGE_LOOP ( 'NONE', ( #56, #112, #181, #70 ) ) ;
#13 = LINE ( 'NONE', #171, #8 ) ;
#14 = CARTESIAN_POINT ( 'NONE',  ( 7.049999999999999822, 0.000000000000000000, -3000.000000000000000 ) ) ;
#15 = LINE ( 'NONE', #145, #3 ) ;
#16 = PRODUCT_DEFINITION ( 'UNKNOWN', '', #62, #78 ) ;
#17 = CYLINDRICAL_SURFACE ( 'NONE', #41, 8.000000000000000000 ) ;
#18 = MANIFOLD_SOLID_BREP ( 'Rohr St', #111 ) ;
#19 = VERTEX_POINT ( 'NONE', #191 ) ;
#20 =( NAMED_UNIT ( * ) PLANE_ANGLE_UNIT ( ) SI_UNIT ( $, .RADIAN. ) );
#21 = DIRECTION ( 'NONE',  ( 0.000000000000000000, 0.000000000000000000, 1.000000000000000000 ) ) ;
#22 = DIRECTION ( 'NONE',  ( 0.000000000000000000, 0.000000000000000000, 1.000000000000000000 ) ) ;
#23 = DIRECTION ( 'NONE',  ( 0.000000000000000000, 0.000000000000000000, 1.000000000000000000 ) ) ;
#24 = DIRECTION ( 'NONE',  ( 1.000000000000000000, 0.000000000000000000, 0.000000000000000000 ) ) ;
#25 = AXIS2_PLACEMENT_3D ( 'NONE', #155, #124, #75 ) ;
#26 = ORIENTED_EDGE ( 'NONE', *, *, #162, .T. ) ;
#27 = FACE_OUTER_BOUND ( 'NONE', #12, .T. ) ;
#28 = VERTEX_POINT ( 'NONE', #137 ) ;
#29 = EDGE_LOOP ( 'NONE', ( #72, #26, #99, #183 ) ) ;
#30 = LINE ( 'NONE', #74, #65 ) ;
#31 = CARTESIAN_POINT ( 'NONE',  ( 8.000000000000000000, 0.000000000000000000, -3000.000000000000000 ) ) ;
#32 = FACE_OUTER_BOUND ( 'NONE', #88, .T. ) ;
#33 = DIRECTION ( 'NONE',  ( 1.000000000000000000, 0.000000000000000000, 0.000000000000000000 ) ) ;
#34 = ADVANCED_FACE ( 'NONE', ( #194, #54 ), #57, .T. ) ;
#35 = ORIENTED_EDGE ( 'NONE', *, *, #97, .T. ) ;
#36 = PRESENTATION_STYLE_ASSIGNMENT (( #189 ) ) ;
#37 = DIRECTION ( 'NONE',  ( 0.000000000000000000, 0.000000000000000000, 1.000000000000000000 ) ) ;
#38 = PRODUCT_CONTEXT ( 'NONE', #107, 'mechanical' ) ;
#39 = EDGE_LOOP ( 'NONE', ( #66, #148 ) ) ;
#40 = CARTESIAN_POINT ( 'NONE',  ( 0.000000000000000000, 0.000000000000000000, -3000.000000000000000 ) ) ;
#41 = AXIS2_PLACEMENT_3D ( 'NONE', #79, #186, #46 ) ;
#42 = VERTEX_POINT ( 'NONE', #115 ) ;
#43 = MECHANICAL_DESIGN_GEOMETRIC_PRESENTATION_REPRESENTATION (  '', ( #129 ), #98 ) ;
#44 = DIRECTION ( 'NONE',  ( 0.000000000000000000, 0.000000000000000000, 1.000000000000000000 ) ) ;
#45 = DIRECTION ( 'NONE',  ( 1.000000000000000000, 0.000000000000000000, 0.000000000000000000 ) ) ;
#46 = DIRECTION ( 'NONE',  ( 1.000000000000000000, 0.000000000000000000, 0.000000000000000000 ) ) ;
#47 = ADVANCED_FACE ( 'NONE', ( #27 ), #182, .F. ) ;
#48 = DIRECTION ( 'NONE',  ( 0.000000000000000000, 0.000000000000000000, 1.000000000000000000 ) ) ;
#49 = EDGE_CURVE ( 'NONE', #42, #28, #147, .T. ) ;
#50 = AXIS2_PLACEMENT_3D ( 'NONE', #184, #125, #45 ) ;
#51 = AXIS2_PLACEMENT_3D ( 'NONE', #199, #126, #76 ) ;
#52 = EDGE_CURVE ( 'NONE', #177, #104, #130, .T. ) ;
#53 =( LENGTH_UNIT ( ) NAMED_UNIT ( * ) SI_UNIT ( .MILLI., .METRE. ) );
#54 = FACE_OUTER_BOUND ( 'NONE', #39, .T. ) ;
#55 =( NAMED_UNIT ( * ) SI_UNIT ( $, .STERADIAN. ) SOLID_ANGLE_UNIT ( ) );
#56 = ORIENTED_EDGE ( 'NONE', *, *, #97, .F. ) ;
#57 = PLANE ( 'NONE',  #6 ) ;
#58 = ORIENTED_EDGE ( 'NONE', *, *, #52, .T. ) ;
#59 = DIRECTION ( 'NONE',  ( 0.000000000000000000, 0.000000000000000000, 1.000000000000000000 ) ) ;
#60 = DIRECTION ( 'NONE',  ( 1.000000000000000000, 0.000000000000000000, 0.000000000000000000 ) ) ;
#61 = CARTESIAN_POINT ( 'NONE',  ( 8.000000000000000000, 0.000000000000000000, 0.000000000000000000 ) ) ;
#62 = PRODUCT_DEFINITION_FORMATION_WITH_SPECIFIED_SOURCE ( 'ANY', '', #9, .NOT_KNOWN. ) ;
#63 = CYLINDRICAL_SURFACE ( 'NONE', #159, 7.049999999999999822 ) ;
#64 = UNCERTAINTY_MEASURE_WITH_UNIT (LENGTH_MEASURE( 1.000000000000000082E-05 ), #90, 'distance_accuracy_value', 'NONE');
#65 = VECTOR ( 'NONE', #59, 1000.000000000000000 ) ;
#66 = ORIENTED_EDGE ( 'NONE', *, *, #188, .T. ) ;
#67 = ADVANCED_FACE ( 'NONE', ( #69, #149 ), #134, .F. ) ;
#68 = SURFACE_SIDE_STYLE ('',( #5 ) ) ;
#69 = FACE_BOUND ( 'NONE', #89, .T. ) ;
#70 = ORIENTED_EDGE ( 'NONE', *, *, #118, .F. ) ;
#71 = EDGE_LOOP ( 'NONE', ( #82, #169, #151, #152 ) ) ;
#72 = ORIENTED_EDGE ( 'NONE', *, *, #173, .F. ) ;
#73 = AXIS2_PLACEMENT_3D ( 'NONE', #166, #21, #84 ) ;
#74 = CARTESIAN_POINT ( 'NONE',  ( -8.000000000000000000, 9.797174393178825657E-16, -3000.000000000000000 ) ) ;
#75 = DIRECTION ( 'NONE',  ( 1.000000000000000000, 0.000000000000000000, 0.000000000000000000 ) ) ;
#76 = DIRECTION ( 'NONE',  ( 1.000000000000000000, 0.000000000000000000, 0.000000000000000000 ) ) ;
#77 = ADVANCED_BREP_SHAPE_REPRESENTATION ( '2046565', ( #18, #96 ), #114 ) ;
#78 = PRODUCT_DEFINITION_CONTEXT ( 'detailed design', #153, 'design' ) ;
#79 = CARTESIAN_POINT ( 'NONE',  ( 0.000000000000000000, 0.000000000000000000, -3000.000000000000000 ) ) ;
#80 = EDGE_CURVE ( 'NONE', #104, #28, #15, .T. ) ;
#81 = CIRCLE ( 'NONE', #51, 8.000000000000000000 ) ;
#82 = ORIENTED_EDGE ( 'NONE', *, *, #91, .T. ) ;
#83 = FILL_AREA_STYLE_COLOUR ( '', #133 ) ;
#84 = DIRECTION ( 'NONE',  ( 1.000000000000000000, 0.000000000000000000, 0.000000000000000000 ) ) ;
#85 = CARTESIAN_POINT ( 'NONE',  ( 0.000000000000000000, 0.000000000000000000, 0.000000000000000000 ) ) ;
#86 = APPLICATION_PROTOCOL_DEFINITION ( 'draft international standard', 'automotive_design', 1998, #153 ) ;
#87 = CIRCLE ( 'NONE', #2, 8.000000000000000000 ) ;
#88 = EDGE_LOOP ( 'NONE', ( #122, #11, #193, #120 ) ) ;
#89 = EDGE_LOOP ( 'NONE', ( #58, #35 ) ) ;
#90 =( LENGTH_UNIT ( ) NAMED_UNIT ( * ) SI_UNIT ( .MILLI., .METRE. ) );
#91 = EDGE_CURVE ( 'NONE', #164, #19, #81, .T. ) ;
#92 = CARTESIAN_POINT ( 'NONE',  ( 0.000000000000000000, 0.000000000000000000, 0.000000000000000000 ) ) ;
#93 = AXIS2_PLACEMENT_3D ( 'NONE', #92, #198, #60 ) ;
#94 = CARTESIAN_POINT ( 'NONE',  ( -7.049999999999999822, 8.633759933988839975E-16, -3000.000000000000000 ) ) ;
#95 = DIRECTION ( 'NONE',  ( 0.000000000000000000, 0.000000000000000000, 1.000000000000000000 ) ) ;
#96 = AXIS2_PLACEMENT_3D ( 'NONE', #103, #22, #24 ) ;
#97 = EDGE_CURVE ( 'NONE', #104, #177, #178, .T. ) ;
#98 =( GEOMETRIC_REPRESENTATION_CONTEXT ( 3 ) GLOBAL_UNCERTAINTY_ASSIGNED_CONTEXT ( ( #113 ) ) GLOBAL_UNIT_ASSIGNED_CONTEXT ( ( #53, #20, #4 ) ) REPRESENTATION_CONTEXT ( 'NONE', 'WORKASPACE' ) );
#99 = ORIENTED_EDGE ( 'NONE', *, *, #157, .T. ) ;
#100 = EDGE_LOOP ( 'NONE', ( #136, #139 ) ) ;
#101 = ORIENTED_EDGE ( 'NONE', *, *, #197, .F. ) ;
#102 = CARTESIAN_POINT ( 'NONE',  ( 0.000000000000000000, 0.000000000000000000, -3000.000000000000000 ) ) ;
#103 = CARTESIAN_POINT ( 'NONE',  ( 0.000000000000000000, 0.000000000000000000, 0.000000000000000000 ) ) ;
#104 = VERTEX_POINT ( 'NONE', #94 ) ;
#105 = DIRECTION ( 'NONE',  ( 1.000000000000000000, 0.000000000000000000, 0.000000000000000000 ) ) ;
#106 = ORIENTED_EDGE ( 'NONE', *, *, #49, .F. ) ;
#107 = APPLICATION_CONTEXT ( 'automotive_design' ) ;
#108 = CARTESIAN_POINT ( 'NONE',  ( -8.000000000000000000, 9.797174393178825657E-16, 0.000000000000000000 ) ) ;
#109 = DIRECTION ( 'NONE',  ( 0.000000000000000000, 0.000000000000000000, 1.000000000000000000 ) ) ;
#110 = LINE ( 'NONE', #158, #190 ) ;
#111 = CLOSED_SHELL ( 'NONE', ( #47, #135, #161, #67, #34, #132 ) ) ;
#112 = ORIENTED_EDGE ( 'NONE', *, *, #80, .T. ) ;
#113 = UNCERTAINTY_MEASURE_WITH_UNIT (LENGTH_MEASURE( 1.000000000000000082E-05 ), #53, 'distance_accuracy_value', 'NONE');
#114 =( GEOMETRIC_REPRESENTATION_CONTEXT ( 3 ) GLOBAL_UNCERTAINTY_ASSIGNED_CONTEXT ( ( #64 ) ) GLOBAL_UNIT_ASSIGNED_CONTEXT ( ( #90, #116, #55 ) ) REPRESENTATION_CONTEXT ( 'NONE', 'WORKASPACE' ) );
#115 = CARTESIAN_POINT ( 'NONE',  ( 7.049999999999999822, 0.000000000000000000, 0.000000000000000000 ) ) ;
#116 =( NAMED_UNIT ( * ) PLANE_ANGLE_UNIT ( ) SI_UNIT ( $, .RADIAN. ) );
#117 = CIRCLE ( 'NONE', #170, 8.000000000000000000 ) ;
#118 = EDGE_CURVE ( 'NONE', #177, #42, #110, .T. ) ;
#119 = PRESENTATION_LAYER_ASSIGNMENT (  '', '', ( #129 ) ) ;
#120 = ORIENTED_EDGE ( 'NONE', *, *, #49, .T. ) ;
#121 = CARTESIAN_POINT ( 'NONE',  ( 0.000000000000000000, 0.000000000000000000, 0.000000000000000000 ) ) ;
#122 = ORIENTED_EDGE ( 'NONE', *, *, #80, .F. ) ;
#123 = EDGE_CURVE ( 'NONE', #195, #138, #117, .T. ) ;
#124 = DIRECTION ( 'NONE',  ( 0.000000000000000000, 0.000000000000000000, 1.000000000000000000 ) ) ;
#125 = DIRECTION ( 'NONE',  ( 0.000000000000000000, 0.000000000000000000, 1.000000000000000000 ) ) ;
#126 = DIRECTION ( 'NONE',  ( 0.000000000000000000, 0.000000000000000000, 1.000000000000000000 ) ) ;
#127 = DIRECTION ( 'NONE',  ( 0.000000000000000000, 0.000000000000000000, 1.000000000000000000 ) ) ;
#128 = PRODUCT_DEFINITION_SHAPE ( 'NONE', 'NONE',  #16 ) ;
#129 = STYLED_ITEM ( 'NONE', ( #36 ), #18 ) ;
#130 = CIRCLE ( 'NONE', #73, 7.049999999999999822 ) ;
#131 = CIRCLE ( 'NONE', #93, 8.000000000000000000 ) ;
#132 = ADVANCED_FACE ( 'NONE', ( #32 ), #63, .F. ) ;
#133 = COLOUR_RGB ( '',0.7921568627450980005, 0.8196078431372548767, 0.9333333333333333481 ) ;
#134 = PLANE ( 'NONE',  #156 ) ;
#135 = ADVANCED_FACE ( 'NONE', ( #160 ), #17, .T. ) ;
#136 = ORIENTED_EDGE ( 'NONE', *, *, #91, .F. ) ;
#137 = CARTESIAN_POINT ( 'NONE',  ( -7.049999999999999822, 8.633759933988839975E-16, 0.000000000000000000 ) ) ;
#138 = VERTEX_POINT ( 'NONE', #61 ) ;
#139 = ORIENTED_EDGE ( 'NONE', *, *, #162, .F. ) ;
#140 = AXIS2_PLACEMENT_3D ( 'NONE', #40, #23, #180 ) ;
#141 = DIRECTION ( 'NONE',  ( 1.000000000000000000, 0.000000000000000000, 0.000000000000000000 ) ) ;
#142 = DIRECTION ( 'NONE',  ( 0.000000000000000000, 0.000000000000000000, 1.000000000000000000 ) ) ;
#143 = CARTESIAN_POINT ( 'NONE',  ( 0.000000000000000000, 0.000000000000000000, 0.000000000000000000 ) ) ;
#144 = CARTESIAN_POINT ( 'NONE',  ( 0.000000000000000000, 0.000000000000000000, -3000.000000000000000 ) ) ;
#145 = CARTESIAN_POINT ( 'NONE',  ( -7.049999999999999822, 8.633759933988839975E-16, -3000.000000000000000 ) ) ;
#146 = AXIS2_PLACEMENT_3D ( 'NONE', #187, #48, #1 ) ;
#147 = CIRCLE ( 'NONE', #163, 7.049999999999999822 ) ;
#148 = ORIENTED_EDGE ( 'NONE', *, *, #123, .T. ) ;
#149 = FACE_OUTER_BOUND ( 'NONE', #100, .T. ) ;
#150 = SHAPE_DEFINITION_REPRESENTATION ( #128, #77 ) ;
#151 = ORIENTED_EDGE ( 'NONE', *, *, #188, .F. ) ;
#152 = ORIENTED_EDGE ( 'NONE', *, *, #157, .F. ) ;
#153 = APPLICATION_CONTEXT ( 'automotive_design' ) ;
#154 = CIRCLE ( 'NONE', #50, 7.049999999999999822 ) ;
#155 = CARTESIAN_POINT ( 'NONE',  ( 0.000000000000000000, 0.000000000000000000, -3000.000000000000000 ) ) ;
#156 = AXIS2_PLACEMENT_3D ( 'NONE', #102, #7, #165 ) ;
#157 = EDGE_CURVE ( 'NONE', #164, #138, #13, .T. ) ;
#158 = CARTESIAN_POINT ( 'NONE',  ( 7.049999999999999822, 0.000000000000000000, -3000.000000000000000 ) ) ;
#159 = AXIS2_PLACEMENT_3D ( 'NONE', #144, #175, #33 ) ;
#160 = FACE_OUTER_BOUND ( 'NONE', #71, .T. ) ;
#161 = ADVANCED_FACE ( 'NONE', ( #185 ), #196, .T. ) ;
#162 = EDGE_CURVE ( 'NONE', #19, #164, #87, .T. ) ;
#163 = AXIS2_PLACEMENT_3D ( 'NONE', #121, #37, #105 ) ;
#164 = VERTEX_POINT ( 'NONE', #31 ) ;
#165 = DIRECTION ( 'NONE',  ( 1.000000000000000000, 0.000000000000000000, -0.000000000000000000 ) ) ;
#166 = CARTESIAN_POINT ( 'NONE',  ( 0.000000000000000000, 0.000000000000000000, -3000.000000000000000 ) ) ;
#167 = EDGE_LOOP ( 'NONE', ( #106, #101 ) ) ;
#168 = DIRECTION ( 'NONE',  ( 0.000000000000000000, 0.000000000000000000, 1.000000000000000000 ) ) ;
#169 = ORIENTED_EDGE ( 'NONE', *, *, #173, .T. ) ;
#170 = AXIS2_PLACEMENT_3D ( 'NONE', #143, #109, #174 ) ;
#171 = CARTESIAN_POINT ( 'NONE',  ( 8.000000000000000000, 0.000000000000000000, -3000.000000000000000 ) ) ;
#172 = CARTESIAN_POINT ( 'NONE',  ( 0.000000000000000000, 0.000000000000000000, -3000.000000000000000 ) ) ;
#173 = EDGE_CURVE ( 'NONE', #19, #195, #30, .T. ) ;
#174 = DIRECTION ( 'NONE',  ( 1.000000000000000000, 0.000000000000000000, 0.000000000000000000 ) ) ;
#175 = DIRECTION ( 'NONE',  ( 0.000000000000000000, 0.000000000000000000, 1.000000000000000000 ) ) ;
#176 = PRODUCT_RELATED_PRODUCT_CATEGORY ( 'part', '', ( #9 ) ) ;
#177 = VERTEX_POINT ( 'NONE', #14 ) ;
#178 = CIRCLE ( 'NONE', #146, 7.049999999999999822 ) ;
#179 = FILL_AREA_STYLE ('',( #83 ) ) ;
#180 = DIRECTION ( 'NONE',  ( 1.000000000000000000, 0.000000000000000000, 0.000000000000000000 ) ) ;
#181 = ORIENTED_EDGE ( 'NONE', *, *, #197, .T. ) ;
#182 = CYLINDRICAL_SURFACE ( 'NONE', #140, 7.049999999999999822 ) ;
#183 = ORIENTED_EDGE ( 'NONE', *, *, #123, .F. ) ;
#184 = CARTESIAN_POINT ( 'NONE',  ( 0.000000000000000000, 0.000000000000000000, 0.000000000000000000 ) ) ;
#185 = FACE_OUTER_BOUND ( 'NONE', #29, .T. ) ;
#186 = DIRECTION ( 'NONE',  ( 0.000000000000000000, 0.000000000000000000, 1.000000000000000000 ) ) ;
#187 = CARTESIAN_POINT ( 'NONE',  ( 0.000000000000000000, 0.000000000000000000, -3000.000000000000000 ) ) ;
#188 = EDGE_CURVE ( 'NONE', #138, #195, #131, .T. ) ;
#189 = SURFACE_STYLE_USAGE ( .BOTH. , #68 ) ;
#190 = VECTOR ( 'NONE', #95, 1000.000000000000000 ) ;
#191 = CARTESIAN_POINT ( 'NONE',  ( -8.000000000000000000, 9.797174393178825657E-16, -3000.000000000000000 ) ) ;
#192 = APPLICATION_PROTOCOL_DEFINITION ( 'draft international standard', 'automotive_design', 1998, #107 ) ;
#193 = ORIENTED_EDGE ( 'NONE', *, *, #118, .T. ) ;
#194 = FACE_BOUND ( 'NONE', #167, .T. ) ;
#195 = VERTEX_POINT ( 'NONE', #108 ) ;
#196 = CYLINDRICAL_SURFACE ( 'NONE', #25, 8.000000000000000000 ) ;
#197 = EDGE_CURVE ( 'NONE', #28, #42, #154, .T. ) ;
#198 = DIRECTION ( 'NONE',  ( 0.000000000000000000, 0.000000000000000000, 1.000000000000000000 ) ) ;
#199 = CARTESIAN_POINT ( 'NONE',  ( 0.000000000000000000, 0.000000000000000000, -3000.000000000000000 ) ) ;
ENDSEC;
END-ISO-10303-21;
