ISO-10303-21;
HEADER;
FILE_DESCRIPTION (( 'STEP AP214' ),
    '1' );
FILE_NAME ('6003758.STP',
    '2018-01-03T09:52:41',
    ( '' ),
    ( '' ),
    'SwSTEP 2.0',
    'SolidWorks 2016',
    '' );
FILE_SCHEMA (( 'AUTOMOTIVE_DESIGN' ));
ENDSEC;

DATA;
#1 = EDGE_CURVE ( 'NONE', #191, #213, #76, .T. ) ;
#2 = CARTESIAN_POINT ( 'NONE',  ( 5.204748896376250700E-016, 0.8903945002592070800, 4.250000000000000000 ) ) ;
#3 = CIRCLE ( 'NONE', #131, 4.250000000000000000 ) ;
#4 = SURFACE_STYLE_USAGE ( .BOTH. , #242 ) ;
#5 = CIRCLE ( 'NONE', #109, 3.705189668059543100 ) ;
#6 = CARTESIAN_POINT ( 'NONE',  ( 0.0000000000000000000, 0.0000000000000000000, 0.0000000000000000000 ) ) ;
#7 = AXIS2_PLACEMENT_3D ( 'NONE', #6, #16, #10 ) ;
#8 = FILL_AREA_STYLE_COLOUR ( '', #325 ) ;
#9 = FACE_OUTER_BOUND ( 'NONE', #107, .T. ) ;
#10 = DIRECTION ( 'NONE',  ( 1.000000000000000000, 0.0000000000000000000, 0.0000000000000000000 ) ) ;
#11 = DIRECTION ( 'NONE',  ( -1.224646799147353200E-016, 0.0000000000000000000, -1.000000000000000000 ) ) ;
#12 = DIRECTION ( 'NONE',  ( 1.000000000000000000, 0.0000000000000000000, -1.224646799147353200E-016 ) ) ;
#13 = CARTESIAN_POINT ( 'NONE',  ( -9.184850993605147200E-017, 10.05657001667870200, -0.7499999999999997800 ) ) ;
#14 = COLOUR_RGB ( '',0.8862745098039215300, 0.3254901960784313800, 0.01176470588235294100 ) ;
#15 = ORIENTED_EDGE ( 'NONE', *, *, #140, .F. ) ;
#16 = DIRECTION ( 'NONE',  ( 0.0000000000000000000, 0.0000000000000000000, 1.000000000000000000 ) ) ;
#17 = EDGE_CURVE ( 'NONE', #342, #286, #58, .T. ) ;
#18 = DIRECTION ( 'NONE',  ( -0.0000000000000000000, -1.000000000000000000, -0.0000000000000000000 ) ) ;
#19 = DIRECTION ( 'NONE',  ( -0.0000000000000000000, -1.000000000000000000, -0.0000000000000000000 ) ) ;
#20 = PRODUCT_DEFINITION_FORMATION_WITH_SPECIFIED_SOURCE ( 'ANY', '', #118, .NOT_KNOWN. ) ;
#21 = DIRECTION ( 'NONE',  ( 0.0000000000000000000, 0.0000000000000000000, -1.000000000000000000 ) ) ;
#22 = ORIENTED_EDGE ( 'NONE', *, *, #17, .T. ) ;
#23 = CYLINDRICAL_SURFACE ( 'NONE', #294, 4.250000000000000000 ) ;
#24 = VERTEX_POINT ( 'NONE', #339 ) ;
#25 = CARTESIAN_POINT ( 'NONE',  ( 0.0000000000000000000, 10.05657001667870200, 0.0000000000000000000 ) ) ;
#26 = AXIS2_PLACEMENT_3D ( 'NONE', #13, #12, #11 ) ;
#27 = ORIENTED_EDGE ( 'NONE', *, *, #257, .F. ) ;
#28 = PRODUCT_CONTEXT ( 'NONE', #330, 'mechanical' ) ;
#29 = EDGE_LOOP ( 'NONE', ( #117, #22, #287, #182 ) ) ;
#30 =( LENGTH_UNIT ( ) NAMED_UNIT ( * ) SI_UNIT ( .MILLI., .METRE. ) );
#31 = EDGE_CURVE ( 'NONE', #231, #154, #214, .T. ) ;
#32 = CARTESIAN_POINT ( 'NONE',  ( 0.0000000000000000000, 0.9000000000000000200, 0.0000000000000000000 ) ) ;
#33 = ORIENTED_EDGE ( 'NONE', *, *, #127, .F. ) ;
#34 = LINE ( 'NONE', #254, #249 ) ;
#35 = PRODUCT_DEFINITION_SHAPE ( 'NONE', 'NONE',  #217 ) ;
#36 = DIRECTION ( 'NONE',  ( 0.0000000000000000000, 0.0000000000000000000, -1.000000000000000000 ) ) ;
#37 = DIRECTION ( 'NONE',  ( -0.0000000000000000000, -1.000000000000000000, -0.0000000000000000000 ) ) ;
#38 = CARTESIAN_POINT ( 'NONE',  ( 0.0000000000000000000, 0.9000000000000000200, 0.0000000000000000000 ) ) ;
#39 = ORIENTED_EDGE ( 'NONE', *, *, #248, .T. ) ;
#40 = DIRECTION ( 'NONE',  ( 0.0000000000000000000, 0.0000000000000000000, -1.000000000000000000 ) ) ;
#41 = ORIENTED_EDGE ( 'NONE', *, *, #285, .T. ) ;
#42 = STYLED_ITEM ( 'NONE', ( #145 ), #282 ) ;
#43 = FILL_AREA_STYLE ('',( #8 ) ) ;
#44 = DIRECTION ( 'NONE',  ( 0.0000000000000000000, 0.0000000000000000000, 1.000000000000000000 ) ) ;
#45 = DIRECTION ( 'NONE',  ( -1.000000000000000000, 0.0000000000000000000, 0.0000000000000000000 ) ) ;
#46 = ORIENTED_EDGE ( 'NONE', *, *, #97, .F. ) ;
#47 = CIRCLE ( 'NONE', #73, 2.950000000000000600 ) ;
#48 = DIRECTION ( 'NONE',  ( -0.0000000000000000000, -1.000000000000000000, -0.0000000000000000000 ) ) ;
#49 =( GEOMETRIC_REPRESENTATION_CONTEXT ( 3 ) GLOBAL_UNCERTAINTY_ASSIGNED_CONTEXT ( ( #301 ) ) GLOBAL_UNIT_ASSIGNED_CONTEXT ( ( #241, #313, #341 ) ) REPRESENTATION_CONTEXT ( 'NONE', 'WORKASPACE' ) );
#50 = CARTESIAN_POINT ( 'NONE',  ( 2.168404344971008900E-016, 13.51308560321957600, 0.0000000000000000000 ) ) ;
#51 = CIRCLE ( 'NONE', #119, 3.705189668059543100 ) ;
#52 = SURFACE_STYLE_FILL_AREA ( #70 ) ;
#53 = EDGE_CURVE ( 'NONE', #191, #154, #252, .T. ) ;
#54 = CIRCLE ( 'NONE', #87, 2.950000000000000600 ) ;
#55 = CARTESIAN_POINT ( 'NONE',  ( 3.612708057484692100E-016, 0.0000000000000000000, 2.950000000000000200 ) ) ;
#56 = DIRECTION ( 'NONE',  ( 0.0000000000000000000, 0.0000000000000000000, -1.000000000000000000 ) ) ;
#57 = VERTEX_POINT ( 'NONE', #250 ) ;
#58 = CIRCLE ( 'NONE', #208, 1.000000000000000000 ) ;
#59 = AXIS2_PLACEMENT_3D ( 'NONE', #321, #343, #137 ) ;
#60 = CARTESIAN_POINT ( 'NONE',  ( 0.0000000000000000000, 10.05657001667870200, 0.0000000000000000000 ) ) ;
#61 = LINE ( 'NONE', #85, #229 ) ;
#62 = DIRECTION ( 'NONE',  ( 0.0000000000000000000, -0.7660444431189817900, -0.6427876096865348100 ) ) ;
#63 = ORIENTED_EDGE ( 'NONE', *, *, #186, .T. ) ;
#64 = CARTESIAN_POINT ( 'NONE',  ( 0.0000000000000000000, 10.05657001667870200, 0.5500000000000001600 ) ) ;
#65 = VERTEX_POINT ( 'NONE', #331 ) ;
#66 = CARTESIAN_POINT ( 'NONE',  ( 0.0000000000000000000, 0.9000000000000000200, -2.950000000000000200 ) ) ;
#67 = SHAPE_DEFINITION_REPRESENTATION ( #35, #198 ) ;
#68 = FACE_OUTER_BOUND ( 'NONE', #196, .T. ) ;
#69 = CIRCLE ( 'NONE', #307, 4.250000000000000000 ) ;
#70 = FILL_AREA_STYLE ('',( #176 ) ) ;
#71 = CARTESIAN_POINT ( 'NONE',  ( 3.612708057484692100E-016, 0.9000000000000000200, 2.950000000000000200 ) ) ;
#72 = TOROIDAL_SURFACE ( 'NONE', #103, 3.250000000000000400, 1.000000000000000000 ) ;
#73 = AXIS2_PLACEMENT_3D ( 'NONE', #60, #74, #329 ) ;
#74 = DIRECTION ( 'NONE',  ( -0.0000000000000000000, -1.000000000000000000, -0.0000000000000000000 ) ) ;
#75 = DIRECTION ( 'NONE',  ( -0.0000000000000000000, -1.000000000000000000, -0.0000000000000000000 ) ) ;
#76 = LINE ( 'NONE', #66, #206 ) ;
#77 = EDGE_LOOP ( 'NONE', ( #259, #189, #39, #312 ) ) ;
#78 = CYLINDRICAL_SURFACE ( 'NONE', #194, 4.250000000000000000 ) ;
#79 = CARTESIAN_POINT ( 'NONE',  ( 0.0000000000000000000, 0.8903945002592070800, 0.0000000000000000000 ) ) ;
#80 = AXIS2_PLACEMENT_3D ( 'NONE', #278, #314, #302 ) ;
#81 = PRODUCT_DEFINITION_CONTEXT ( 'detailed design', #156, 'design' ) ;
#82 = ORIENTED_EDGE ( 'NONE', *, *, #297, .F. ) ;
#83 = ORIENTED_EDGE ( 'NONE', *, *, #257, .T. ) ;
#84 = CARTESIAN_POINT ( 'NONE',  ( 0.0000000000000000000, 0.0000000000000000000, -2.950000000000000200 ) ) ;
#85 = CARTESIAN_POINT ( 'NONE',  ( 5.204748896376250700E-016, 0.0000000000000000000, 4.250000000000000000 ) ) ;
#86 = VECTOR ( 'NONE', #212, 1000.000000000000000 ) ;
#87 = AXIS2_PLACEMENT_3D ( 'NONE', #290, #288, #293 ) ;
#88 = DIRECTION ( 'NONE',  ( 0.0000000000000000000, 0.0000000000000000000, -1.000000000000000000 ) ) ;
#89 = ORIENTED_EDGE ( 'NONE', *, *, #31, .F. ) ;
#90 = FACE_OUTER_BOUND ( 'NONE', #77, .T. ) ;
#91 = AXIS2_PLACEMENT_3D ( 'NONE', #157, #181, #340 ) ;
#92 = EDGE_LOOP ( 'NONE', ( #237, #305, #316 ) ) ;
#93 = ORIENTED_EDGE ( 'NONE', *, *, #203, .T. ) ;
#94 = AXIS2_PLACEMENT_3D ( 'NONE', #79, #104, #88 ) ;
#95 = CIRCLE ( 'NONE', #304, 4.250000000000000000 ) ;
#96 = VECTOR ( 'NONE', #195, 1000.000000000000000 ) ;
#97 = EDGE_CURVE ( 'NONE', #24, #231, #47, .T. ) ;
#98 = CIRCLE ( 'NONE', #179, 5.000000000000000000 ) ;
#99 = ORIENTED_EDGE ( 'NONE', *, *, #1, .T. ) ;
#100 = EDGE_LOOP ( 'NONE', ( #210, #93, #102 ) ) ;
#101 = CYLINDRICAL_SURFACE ( 'NONE', #215, 2.950000000000000200 ) ;
#102 = ORIENTED_EDGE ( 'NONE', *, *, #112, .F. ) ;
#103 = AXIS2_PLACEMENT_3D ( 'NONE', #166, #18, #202 ) ;
#104 = DIRECTION ( 'NONE',  ( -0.0000000000000000000, -1.000000000000000000, -0.0000000000000000000 ) ) ;
#105 = EDGE_LOOP ( 'NONE', ( #299, #333, #303, #332 ) ) ;
#106 = LINE ( 'NONE', #84, #96 ) ;
#107 = EDGE_LOOP ( 'NONE', ( #124, #267, #27 ) ) ;
#108 = CARTESIAN_POINT ( 'NONE',  ( 0.0000000000000000000, 0.0000000000000000000, -3.705189668059543100 ) ) ;
#109 = AXIS2_PLACEMENT_3D ( 'NONE', #344, #225, #149 ) ;
#110 = FACE_OUTER_BOUND ( 'NONE', #122, .T. ) ;
#111 = CONICAL_SURFACE ( 'NONE', #91, 2.950000000000000200, 0.6981317007977259100 ) ;
#112 = EDGE_CURVE ( 'NONE', #65, #57, #69, .T. ) ;
#113 = CIRCLE ( 'NONE', #283, 1.000000000000000000 ) ;
#114 = UNCERTAINTY_MEASURE_WITH_UNIT (LENGTH_MEASURE( 1.000000000000000100E-005 ), #30, 'distance_accuracy_value', 'NONE');
#115 = DIRECTION ( 'NONE',  ( 0.0000000000000000000, 0.0000000000000000000, 1.000000000000000000 ) ) ;
#116 = PRESENTATION_STYLE_ASSIGNMENT (( #238 ) ) ;
#117 = ORIENTED_EDGE ( 'NONE', *, *, #140, .T. ) ;
#118 = PRODUCT ( '6003758', '6003758', '', ( #28 ) ) ;
#119 = AXIS2_PLACEMENT_3D ( 'NONE', #245, #183, #180 ) ;
#120 = FACE_OUTER_BOUND ( 'NONE', #280, .T. ) ;
#121 = VERTEX_POINT ( 'NONE', #50 ) ;
#122 = EDGE_LOOP ( 'NONE', ( #89, #46, #146, #292 ) ) ;
#123 = AXIS2_PLACEMENT_3D ( 'NONE', #284, #277, #273 ) ;
#124 = ORIENTED_EDGE ( 'NONE', *, *, #203, .F. ) ;
#125 = DIRECTION ( 'NONE',  ( -1.000000000000000000, 0.0000000000000000000, 0.0000000000000000000 ) ) ;
#126 = CYLINDRICAL_SURFACE ( 'NONE', #123, 2.950000000000000200 ) ;
#127 = EDGE_CURVE ( 'NONE', #342, #174, #281, .T. ) ;
#128 = ORIENTED_EDGE ( 'NONE', *, *, #158, .T. ) ;
#129 = ORIENTED_EDGE ( 'NONE', *, *, #223, .F. ) ;
#130 = CARTESIAN_POINT ( 'NONE',  ( 0.0000000000000000000, 10.05657001667870200, 0.7499999999999997800 ) ) ;
#131 = AXIS2_PLACEMENT_3D ( 'NONE', #261, #258, #276 ) ;
#132 = FACE_OUTER_BOUND ( 'NONE', #319, .T. ) ;
#133 = CARTESIAN_POINT ( 'NONE',  ( 0.0000000000000000000, 0.9000000000000000200, 0.0000000000000000000 ) ) ;
#134 =( GEOMETRIC_REPRESENTATION_CONTEXT ( 3 ) GLOBAL_UNCERTAINTY_ASSIGNED_CONTEXT ( ( #308 ) ) GLOBAL_UNIT_ASSIGNED_CONTEXT ( ( #200, #173, #236 ) ) REPRESENTATION_CONTEXT ( 'NONE', 'WORKASPACE' ) );
#135 = ORIENTED_EDGE ( 'NONE', *, *, #285, .F. ) ;
#136 = FACE_OUTER_BOUND ( 'NONE', #260, .T. ) ;
#137 = DIRECTION ( 'NONE',  ( 0.0000000000000000000, 0.0000000000000000000, -1.000000000000000000 ) ) ;
#138 = SURFACE_STYLE_FILL_AREA ( #43 ) ;
#139 = DIRECTION ( 'NONE',  ( 0.0000000000000000000, 0.0000000000000000000, -1.000000000000000000 ) ) ;
#140 = EDGE_CURVE ( 'NONE', #174, #342, #3, .T. ) ;
#141 = CARTESIAN_POINT ( 'NONE',  ( 0.0000000000000000000, 0.0000000000000000000, 0.0000000000000000000 ) ) ;
#142 = EDGE_LOOP ( 'NONE', ( #83, #338, #15, #161 ) ) ;
#143 = APPLICATION_PROTOCOL_DEFINITION ( 'draft international standard', 'automotive_design', 1998, #156 ) ;
#144 = CARTESIAN_POINT ( 'NONE',  ( 0.0000000000000000000, 0.0000000000000000000, 0.0000000000000000000 ) ) ;
#145 = PRESENTATION_STYLE_ASSIGNMENT (( #4 ) ) ;
#146 = ORIENTED_EDGE ( 'NONE', *, *, #233, .T. ) ;
#147 = AXIS2_PLACEMENT_3D ( 'NONE', #269, #163, #271 ) ;
#148 = DIRECTION ( 'NONE',  ( -0.0000000000000000000, -1.000000000000000000, -0.0000000000000000000 ) ) ;
#149 = DIRECTION ( 'NONE',  ( 0.0000000000000000000, 0.0000000000000000000, -1.000000000000000000 ) ) ;
#150 = DIRECTION ( 'NONE',  ( 0.0000000000000000000, 0.0000000000000000000, -1.000000000000000000 ) ) ;
#151 = AXIS2_PLACEMENT_3D ( 'NONE', #133, #199, #220 ) ;
#152 = PRODUCT_RELATED_PRODUCT_CATEGORY ( 'part', '', ( #118 ) ) ;
#153 = DIRECTION ( 'NONE',  ( 0.0000000000000000000, 0.0000000000000000000, -1.000000000000000000 ) ) ;
#154 = VERTEX_POINT ( 'NONE', #71 ) ;
#155 = DIRECTION ( 'NONE',  ( 7.871877887341930800E-017, -0.7660444431189817900, 0.6427876096865348100 ) ) ;
#156 = APPLICATION_CONTEXT ( 'automotive_design' ) ;
#157 = CARTESIAN_POINT ( 'NONE',  ( 0.0000000000000000000, 0.9000000000000000200, 0.0000000000000000000 ) ) ;
#158 = EDGE_CURVE ( 'NONE', #57, #174, #34, .T. ) ;
#159 = CARTESIAN_POINT ( 'NONE',  ( 0.0000000000000000000, 15.00000000000000000, 0.0000000000000000000 ) ) ;
#160 = FACE_OUTER_BOUND ( 'NONE', #142, .T. ) ;
#161 = ORIENTED_EDGE ( 'NONE', *, *, #158, .F. ) ;
#162 = CLOSED_SHELL ( 'NONE', ( #170, #227, #201, #204, #234, #219, #266, #336, #172, #222, #188, #262 ) ) ;
#163 = DIRECTION ( 'NONE',  ( -0.0000000000000000000, -1.000000000000000000, -0.0000000000000000000 ) ) ;
#164 = FACE_OUTER_BOUND ( 'NONE', #92, .T. ) ;
#165 = MECHANICAL_DESIGN_GEOMETRIC_PRESENTATION_REPRESENTATION (  '', ( #42 ), #134 ) ;
#166 = CARTESIAN_POINT ( 'NONE',  ( 0.0000000000000000000, 0.8903945002592070800, 0.0000000000000000000 ) ) ;
#167 = DIRECTION ( 'NONE',  ( -0.0000000000000000000, -1.000000000000000000, -0.0000000000000000000 ) ) ;
#168 = ORIENTED_EDGE ( 'NONE', *, *, #53, .F. ) ;
#169 = TOROIDAL_SURFACE ( 'NONE', #240, -0.5500000000000001600, 3.500000000000000400 ) ;
#170 = ADVANCED_FACE ( 'NONE', ( #132 ), #310, .F. ) ;
#171 = MECHANICAL_DESIGN_GEOMETRIC_PRESENTATION_REPRESENTATION (  '', ( #279 ), #49 ) ;
#172 = ADVANCED_FACE ( 'NONE', ( #244 ), #296, .T. ) ;
#173 =( NAMED_UNIT ( * ) PLANE_ANGLE_UNIT ( ) SI_UNIT ( $, .RADIAN. ) );
#174 = VERTEX_POINT ( 'NONE', #239 ) ;
#175 = ORIENTED_EDGE ( 'NONE', *, *, #268, .T. ) ;
#176 = FILL_AREA_STYLE_COLOUR ( '', #14 ) ;
#177 = EDGE_CURVE ( 'NONE', #231, #24, #54, .T. ) ;
#178 = ORIENTED_EDGE ( 'NONE', *, *, #289, .F. ) ;
#179 = AXIS2_PLACEMENT_3D ( 'NONE', #130, #125, #115 ) ;
#180 = DIRECTION ( 'NONE',  ( 0.0000000000000000000, 0.0000000000000000000, -1.000000000000000000 ) ) ;
#181 = DIRECTION ( 'NONE',  ( -0.0000000000000000000, -1.000000000000000000, -0.0000000000000000000 ) ) ;
#182 = ORIENTED_EDGE ( 'NONE', *, *, #248, .F. ) ;
#183 = DIRECTION ( 'NONE',  ( -0.0000000000000000000, -1.000000000000000000, -0.0000000000000000000 ) ) ;
#184 = FACE_OUTER_BOUND ( 'NONE', #29, .T. ) ;
#185 = CARTESIAN_POINT ( 'NONE',  ( 3.612708057484692100E-016, 0.9000000000000000200, 2.950000000000000200 ) ) ;
#186 = EDGE_CURVE ( 'NONE', #121, #231, #300, .T. ) ;
#187 = APPLICATION_PROTOCOL_DEFINITION ( 'draft international standard', 'automotive_design', 1998, #330 ) ;
#188 = ADVANCED_FACE ( 'NONE', ( #110 ), #126, .F. ) ;
#189 = ORIENTED_EDGE ( 'NONE', *, *, #127, .T. ) ;
#190 = EDGE_CURVE ( 'NONE', #213, #286, #5, .T. ) ;
#191 = VERTEX_POINT ( 'NONE', #274 ) ;
#192 = CARTESIAN_POINT ( 'NONE',  ( 0.0000000000000000000, 0.0000000000000000000, 0.0000000000000000000 ) ) ;
#193 =( NAMED_UNIT ( * ) SI_UNIT ( $, .STERADIAN. ) SOLID_ANGLE_UNIT ( ) );
#194 = AXIS2_PLACEMENT_3D ( 'NONE', #192, #207, #209 ) ;
#195 = DIRECTION ( 'NONE',  ( -0.0000000000000000000, -1.000000000000000000, -0.0000000000000000000 ) ) ;
#196 = EDGE_LOOP ( 'NONE', ( #178, #63, #235 ) ) ;
#197 = ORIENTED_EDGE ( 'NONE', *, *, #1, .F. ) ;
#198 = ADVANCED_BREP_SHAPE_REPRESENTATION ( '6003758', ( #282, #7 ), #243 ) ;
#199 = DIRECTION ( 'NONE',  ( -0.0000000000000000000, -1.000000000000000000, -0.0000000000000000000 ) ) ;
#200 =( LENGTH_UNIT ( ) NAMED_UNIT ( * ) SI_UNIT ( .MILLI., .METRE. ) );
#201 = ADVANCED_FACE ( 'NONE', ( #68 ), #218, .F. ) ;
#202 = DIRECTION ( 'NONE',  ( 0.0000000000000000000, 0.0000000000000000000, -1.000000000000000000 ) ) ;
#203 = EDGE_CURVE ( 'NONE', #322, #57, #98, .T. ) ;
#204 = ADVANCED_FACE ( 'NONE', ( #9 ), #275, .T. ) ;
#205 = CARTESIAN_POINT ( 'NONE',  ( 3.612708057484692100E-016, 10.05657001667870200, 2.950000000000000200 ) ) ;
#206 = VECTOR ( 'NONE', #62, 1000.000000000000000 ) ;
#207 = DIRECTION ( 'NONE',  ( -0.0000000000000000000, -1.000000000000000000, -0.0000000000000000000 ) ) ;
#208 = AXIS2_PLACEMENT_3D ( 'NONE', #216, #328, #211 ) ;
#209 = DIRECTION ( 'NONE',  ( 0.0000000000000000000, 0.0000000000000000000, -1.000000000000000000 ) ) ;
#210 = ORIENTED_EDGE ( 'NONE', *, *, #323, .F. ) ;
#211 = DIRECTION ( 'NONE',  ( -1.224646799147353000E-016, 0.0000000000000000000, -1.000000000000000000 ) ) ;
#212 = DIRECTION ( 'NONE',  ( -0.0000000000000000000, -1.000000000000000000, -0.0000000000000000000 ) ) ;
#213 = VERTEX_POINT ( 'NONE', #108 ) ;
#214 = LINE ( 'NONE', #55, #86 ) ;
#215 = AXIS2_PLACEMENT_3D ( 'NONE', #141, #148, #139 ) ;
#216 = CARTESIAN_POINT ( 'NONE',  ( 3.980102097228898200E-016, 0.8903945002592070800, 3.250000000000000400 ) ) ;
#217 = PRODUCT_DEFINITION ( 'UNKNOWN', '', #20, #81 ) ;
#218 = TOROIDAL_SURFACE ( 'NONE', #59, -0.5500000000000001600, 3.500000000000000400 ) ;
#219 = ADVANCED_FACE ( 'NONE', ( #184 ), #264, .T. ) ;
#220 = DIRECTION ( 'NONE',  ( 0.0000000000000000000, 0.0000000000000000000, -1.000000000000000000 ) ) ;
#221 = CARTESIAN_POINT ( 'NONE',  ( 0.0000000000000000000, 10.05657001667870200, 0.0000000000000000000 ) ) ;
#222 = ADVANCED_FACE ( 'NONE', ( #164 ), #169, .F. ) ;
#223 = EDGE_CURVE ( 'NONE', #154, #191, #327, .T. ) ;
#224 = ORIENTED_EDGE ( 'NONE', *, *, #190, .T. ) ;
#225 = DIRECTION ( 'NONE',  ( -0.0000000000000000000, -1.000000000000000000, -0.0000000000000000000 ) ) ;
#226 = DIRECTION ( 'NONE',  ( 0.0000000000000000000, 0.0000000000000000000, -1.000000000000000000 ) ) ;
#227 = ADVANCED_FACE ( 'NONE', ( #270 ), #101, .F. ) ;
#228 = CARTESIAN_POINT ( 'NONE',  ( 0.0000000000000000000, 10.05657001667870200, 0.0000000000000000000 ) ) ;
#229 = VECTOR ( 'NONE', #317, 1000.000000000000000 ) ;
#230 = CARTESIAN_POINT ( 'NONE',  ( 0.0000000000000000000, 10.05657001667870200, 0.0000000000000000000 ) ) ;
#231 = VERTEX_POINT ( 'NONE', #205 ) ;
#232 = CARTESIAN_POINT ( 'NONE',  ( 0.0000000000000000000, 0.8903945002592070800, -3.250000000000000400 ) ) ;
#233 = EDGE_CURVE ( 'NONE', #24, #191, #106, .T. ) ;
#234 = ADVANCED_FACE ( 'NONE', ( #160 ), #78, .T. ) ;
#235 = ORIENTED_EDGE ( 'NONE', *, *, #177, .T. ) ;
#236 =( NAMED_UNIT ( * ) SI_UNIT ( $, .STERADIAN. ) SOLID_ANGLE_UNIT ( ) );
#237 = ORIENTED_EDGE ( 'NONE', *, *, #186, .F. ) ;
#238 = SURFACE_STYLE_USAGE ( .BOTH. , #320 ) ;
#239 = CARTESIAN_POINT ( 'NONE',  ( 0.0000000000000000000, 0.8903945002592070800, -4.250000000000000000 ) ) ;
#240 = AXIS2_PLACEMENT_3D ( 'NONE', #228, #324, #150 ) ;
#241 =( LENGTH_UNIT ( ) NAMED_UNIT ( * ) SI_UNIT ( .MILLI., .METRE. ) );
#242 = SURFACE_SIDE_STYLE ('',( #52 ) ) ;
#243 =( GEOMETRIC_REPRESENTATION_CONTEXT ( 3 ) GLOBAL_UNCERTAINTY_ASSIGNED_CONTEXT ( ( #114 ) ) GLOBAL_UNIT_ASSIGNED_CONTEXT ( ( #30, #306, #193 ) ) REPRESENTATION_CONTEXT ( 'NONE', 'WORKASPACE' ) );
#244 = FACE_OUTER_BOUND ( 'NONE', #100, .T. ) ;
#245 = CARTESIAN_POINT ( 'NONE',  ( 0.0000000000000000000, 0.0000000000000000000, 0.0000000000000000000 ) ) ;
#246 = CARTESIAN_POINT ( 'NONE',  ( 0.0000000000000000000, 0.8903945002592070800, 0.0000000000000000000 ) ) ;
#247 = DIRECTION ( 'NONE',  ( 0.0000000000000000000, 0.0000000000000000000, -1.000000000000000000 ) ) ;
#248 = EDGE_CURVE ( 'NONE', #174, #213, #113, .T. ) ;
#249 = VECTOR ( 'NONE', #335, 1000.000000000000000 ) ;
#250 = CARTESIAN_POINT ( 'NONE',  ( 0.0000000000000000000, 10.05657001667870200, -4.250000000000000000 ) ) ;
#251 = DIRECTION ( 'NONE',  ( -0.0000000000000000000, -1.000000000000000000, -0.0000000000000000000 ) ) ;
#252 = CIRCLE ( 'NONE', #255, 2.950000000000000200 ) ;
#253 = ORIENTED_EDGE ( 'NONE', *, *, #112, .T. ) ;
#254 = CARTESIAN_POINT ( 'NONE',  ( 0.0000000000000000000, 0.0000000000000000000, -4.250000000000000000 ) ) ;
#255 = AXIS2_PLACEMENT_3D ( 'NONE', #32, #37, #36 ) ;
#256 = DIRECTION ( 'NONE',  ( -0.0000000000000000000, -1.000000000000000000, -0.0000000000000000000 ) ) ;
#257 = EDGE_CURVE ( 'NONE', #57, #65, #95, .T. ) ;
#258 = DIRECTION ( 'NONE',  ( -0.0000000000000000000, -1.000000000000000000, -0.0000000000000000000 ) ) ;
#259 = ORIENTED_EDGE ( 'NONE', *, *, #17, .F. ) ;
#260 = EDGE_LOOP ( 'NONE', ( #135, #168, #99, #224 ) ) ;
#261 = CARTESIAN_POINT ( 'NONE',  ( 0.0000000000000000000, 0.8903945002592070800, 0.0000000000000000000 ) ) ;
#262 = ADVANCED_FACE ( 'NONE', ( #136 ), #111, .F. ) ;
#263 = DIRECTION ( 'NONE',  ( -1.000000000000000000, 0.0000000000000000000, 0.0000000000000000000 ) ) ;
#264 = TOROIDAL_SURFACE ( 'NONE', #94, 3.250000000000000400, 1.000000000000000000 ) ;
#265 = AXIS2_PLACEMENT_3D ( 'NONE', #64, #45, #44 ) ;
#266 = ADVANCED_FACE ( 'NONE', ( #90 ), #72, .T. ) ;
#267 = ORIENTED_EDGE ( 'NONE', *, *, #323, .T. ) ;
#268 = EDGE_CURVE ( 'NONE', #286, #213, #51, .T. ) ;
#269 = CARTESIAN_POINT ( 'NONE',  ( 0.0000000000000000000, 10.05657001667870200, 0.0000000000000000000 ) ) ;
#270 = FACE_OUTER_BOUND ( 'NONE', #105, .T. ) ;
#271 = DIRECTION ( 'NONE',  ( 0.0000000000000000000, 0.0000000000000000000, -1.000000000000000000 ) ) ;
#272 = PRESENTATION_LAYER_ASSIGNMENT (  '', '', ( #279 ) ) ;
#273 = DIRECTION ( 'NONE',  ( 0.0000000000000000000, 0.0000000000000000000, -1.000000000000000000 ) ) ;
#274 = CARTESIAN_POINT ( 'NONE',  ( 0.0000000000000000000, 0.9000000000000000200, -2.950000000000000200 ) ) ;
#275 = TOROIDAL_SURFACE ( 'NONE', #311, -0.7499999999999997800, 5.000000000000000000 ) ;
#276 = DIRECTION ( 'NONE',  ( 0.0000000000000000000, 0.0000000000000000000, -1.000000000000000000 ) ) ;
#277 = DIRECTION ( 'NONE',  ( -0.0000000000000000000, -1.000000000000000000, -0.0000000000000000000 ) ) ;
#278 = CARTESIAN_POINT ( 'NONE',  ( -6.735557395310443700E-017, 10.05657001667870200, -0.5500000000000001600 ) ) ;
#279 = STYLED_ITEM ( 'NONE', ( #116 ), #198 ) ;
#280 = EDGE_LOOP ( 'NONE', ( #82, #253, #128, #33 ) ) ;
#281 = CIRCLE ( 'NONE', #298, 4.250000000000000000 ) ;
#282 = MANIFOLD_SOLID_BREP ( 'Rotation1', #162 ) ;
#283 = AXIS2_PLACEMENT_3D ( 'NONE', #232, #263, #295 ) ;
#284 = CARTESIAN_POINT ( 'NONE',  ( 0.0000000000000000000, 0.0000000000000000000, 0.0000000000000000000 ) ) ;
#285 = EDGE_CURVE ( 'NONE', #154, #286, #309, .T. ) ;
#286 = VERTEX_POINT ( 'NONE', #326 ) ;
#287 = ORIENTED_EDGE ( 'NONE', *, *, #190, .F. ) ;
#288 = DIRECTION ( 'NONE',  ( -0.0000000000000000000, -1.000000000000000000, -0.0000000000000000000 ) ) ;
#289 = EDGE_CURVE ( 'NONE', #121, #24, #315, .T. ) ;
#290 = CARTESIAN_POINT ( 'NONE',  ( 0.0000000000000000000, 10.05657001667870200, 0.0000000000000000000 ) ) ;
#291 = CIRCLE ( 'NONE', #26, 5.000000000000000000 ) ;
#292 = ORIENTED_EDGE ( 'NONE', *, *, #53, .T. ) ;
#293 = DIRECTION ( 'NONE',  ( 0.0000000000000000000, 0.0000000000000000000, -1.000000000000000000 ) ) ;
#294 = AXIS2_PLACEMENT_3D ( 'NONE', #144, #19, #40 ) ;
#295 = DIRECTION ( 'NONE',  ( 0.0000000000000000000, 0.0000000000000000000, 1.000000000000000000 ) ) ;
#296 = TOROIDAL_SURFACE ( 'NONE', #147, -0.7499999999999997800, 5.000000000000000000 ) ;
#297 = EDGE_CURVE ( 'NONE', #65, #342, #61, .T. ) ;
#298 = AXIS2_PLACEMENT_3D ( 'NONE', #246, #251, #247 ) ;
#299 = ORIENTED_EDGE ( 'NONE', *, *, #177, .F. ) ;
#300 = CIRCLE ( 'NONE', #80, 3.500000000000000400 ) ;
#301 = UNCERTAINTY_MEASURE_WITH_UNIT (LENGTH_MEASURE( 1.000000000000000100E-005 ), #241, 'distance_accuracy_value', 'NONE');
#302 = DIRECTION ( 'NONE',  ( -1.224646799147353200E-016, 0.0000000000000000000, -1.000000000000000000 ) ) ;
#303 = ORIENTED_EDGE ( 'NONE', *, *, #223, .T. ) ;
#304 = AXIS2_PLACEMENT_3D ( 'NONE', #230, #167, #226 ) ;
#305 = ORIENTED_EDGE ( 'NONE', *, *, #289, .T. ) ;
#306 =( NAMED_UNIT ( * ) PLANE_ANGLE_UNIT ( ) SI_UNIT ( $, .RADIAN. ) );
#307 = AXIS2_PLACEMENT_3D ( 'NONE', #25, #48, #56 ) ;
#308 = UNCERTAINTY_MEASURE_WITH_UNIT (LENGTH_MEASURE( 1.000000000000000100E-005 ), #200, 'distance_accuracy_value', 'NONE');
#309 = LINE ( 'NONE', #185, #337 ) ;
#310 = CONICAL_SURFACE ( 'NONE', #334, 2.950000000000000200, 0.6981317007977259100 ) ;
#311 = AXIS2_PLACEMENT_3D ( 'NONE', #221, #75, #153 ) ;
#312 = ORIENTED_EDGE ( 'NONE', *, *, #268, .F. ) ;
#313 =( NAMED_UNIT ( * ) PLANE_ANGLE_UNIT ( ) SI_UNIT ( $, .RADIAN. ) );
#314 = DIRECTION ( 'NONE',  ( 1.000000000000000000, 0.0000000000000000000, -1.224646799147353200E-016 ) ) ;
#315 = CIRCLE ( 'NONE', #265, 3.500000000000000400 ) ;
#316 = ORIENTED_EDGE ( 'NONE', *, *, #97, .T. ) ;
#317 = DIRECTION ( 'NONE',  ( -0.0000000000000000000, -1.000000000000000000, -0.0000000000000000000 ) ) ;
#318 = PRESENTATION_LAYER_ASSIGNMENT (  '', '', ( #42 ) ) ;
#319 = EDGE_LOOP ( 'NONE', ( #129, #41, #175, #197 ) ) ;
#320 = SURFACE_SIDE_STYLE ('',( #138 ) ) ;
#321 = CARTESIAN_POINT ( 'NONE',  ( 0.0000000000000000000, 10.05657001667870200, 0.0000000000000000000 ) ) ;
#322 = VERTEX_POINT ( 'NONE', #159 ) ;
#323 = EDGE_CURVE ( 'NONE', #322, #65, #291, .T. ) ;
#324 = DIRECTION ( 'NONE',  ( -0.0000000000000000000, -1.000000000000000000, -0.0000000000000000000 ) ) ;
#325 = COLOUR_RGB ( '',0.8862745098039215300, 0.3254901960784313800, 0.01176470588235294100 ) ;
#326 = CARTESIAN_POINT ( 'NONE',  ( 4.871148781799607800E-016, 0.0000000000000000000, 3.705189668059543100 ) ) ;
#327 = CIRCLE ( 'NONE', #151, 2.950000000000000200 ) ;
#328 = DIRECTION ( 'NONE',  ( 1.000000000000000000, 0.0000000000000000000, -1.224646799147353200E-016 ) ) ;
#329 = DIRECTION ( 'NONE',  ( 0.0000000000000000000, 0.0000000000000000000, -1.000000000000000000 ) ) ;
#330 = APPLICATION_CONTEXT ( 'automotive_design' ) ;
#331 = CARTESIAN_POINT ( 'NONE',  ( 5.204748896376250700E-016, 10.05657001667870200, 4.250000000000000000 ) ) ;
#332 = ORIENTED_EDGE ( 'NONE', *, *, #233, .F. ) ;
#333 = ORIENTED_EDGE ( 'NONE', *, *, #31, .T. ) ;
#334 = AXIS2_PLACEMENT_3D ( 'NONE', #38, #256, #21 ) ;
#335 = DIRECTION ( 'NONE',  ( -0.0000000000000000000, -1.000000000000000000, -0.0000000000000000000 ) ) ;
#336 = ADVANCED_FACE ( 'NONE', ( #120 ), #23, .T. ) ;
#337 = VECTOR ( 'NONE', #155, 1000.000000000000000 ) ;
#338 = ORIENTED_EDGE ( 'NONE', *, *, #297, .T. ) ;
#339 = CARTESIAN_POINT ( 'NONE',  ( 0.0000000000000000000, 10.05657001667870200, -2.950000000000000200 ) ) ;
#340 = DIRECTION ( 'NONE',  ( 0.0000000000000000000, 0.0000000000000000000, -1.000000000000000000 ) ) ;
#341 =( NAMED_UNIT ( * ) SI_UNIT ( $, .STERADIAN. ) SOLID_ANGLE_UNIT ( ) );
#342 = VERTEX_POINT ( 'NONE', #2 ) ;
#343 = DIRECTION ( 'NONE',  ( -0.0000000000000000000, -1.000000000000000000, -0.0000000000000000000 ) ) ;
#344 = CARTESIAN_POINT ( 'NONE',  ( 0.0000000000000000000, 0.0000000000000000000, 0.0000000000000000000 ) ) ;
ENDSEC;
END-ISO-10303-21;
